Slayer: aprender a tocar la intro de Raining Blood

Seguimos con las vídeo-lecciones de guitarra, en este caso Andy James nos enseña a tocar el riff principal de la canción de Slayer «Raining Blood». Os dejo también la tablatura del riff, las notas al aire de la sexta cuerda las tocamos con palm muting:


e-----------------------------------------------------------------
b-----------------------------------------------------------------
g-----------------------------------------------------------------
d---------8-9-8-----8-7-----7-6-------------8-9-8-----8-7-----7-6-
a-------7---------9-------8---------------7---------9-------8-----
e-0-0-0-----------------------------0-0-0-------------------------

Y cuando entra la segunda guitarra:

e-----------------------------------------------------------------
b-----------------------------------------------------------------
g-----------8-9-8-----8-7-------7-6---------8-9-8-----8-7-----7-6-
d--------7---------9---------8------------7---------9-------8-----
a-----------------------------------------------------------------
e-0-0-0-----------------------------0-0-0-------------------------