La escala menor de Blues en Si

La escala menor de Blues en B (Si) tiene la siguiente estructura:

B, D, E, F, F#, A

Si, Re, Mi, F, Fa#, La

Vamos a ver unos cuantos patrones de la misma a lo largo del diapasón para que podáis practicar sobre esta tonalidad en particular. Recordad que la escala de Blues es muy similar a la pentatónica, la única diferencia es que la escala de Blues tiene una cuarta sostenida #4th. Ahí van unos cuantos patrones:

Patrón 1:

|--------------------------------7-10-7----------------------------|
|---------------------------7-10
--------10-7-----------------------|
|--------------------7-9-10------------------10-9-7--------
--------|
|---------------7-9---------------------------------9-7-
-----------|
|--------7-8-9------------------------------------------9-8-7-
-----|
|--7-10-------------------------------------------------------10-7-|

Patrón 2:

|----------------------------------10-12-13-12-10-
|----------------------------10-12
----------------
|--------------------9-10-11----------------------

|--------------9-12---------------------------
----
|---------9-12-------------------------------
-----
|10-12-13-----------------------------------------

----------------------------------|
12-10-----------------------------|
------11-10-9---------------------|
--------------12-9----------------|
-------------------12-9-----------|
------------------------13-12-10--|

Patrón 3:

|------------------------------------12-13-14-13-12-
|------------------------------12-15
----------------
|------------------------11-14----------------------

|---------------12-14-15--------------------------
--
|---------12-14-------------------------------
------
|12-13-14-------------------------------------------

-------------------------------------|
15-12--------------------------------|
------14-11--------------------------|
------------15-14-12-----------------|
---------------------14-12-----------|
---------------------------14-13-12--|

Patrón 4

|-----------------------------5-7-5--------------------------|
|-----------------------5-6
-7-------7-6-5--------------------|
|------------------4-7--------------------7-4--------
--------|
|--------------4-7----------------------------7-4-
-----------|
|-------5-7-8-------------------------------------8-7-5-
-----|
|--5-7--------------------------------------------------75---|

Ahora ya sabéis, a improvisar sobre bases rítmicas de blues para coger el punto a esta escala, una de las más utilizadas en el mundo de la guitarra.