Escalas a una sola cuerda

Nunca viene mal cambiar un poco la rutina a la hora de practicar ejercicios de guitarra, y algo que hacemos mucho es practicar diferentes escalas a lo largo del diapasón. Normalmente lo hacemos involucrando más de una cuerda, es más, casi siempre utilizamos dibujos o patrones que engloban todas las cuerdas de la guitarra.

He desempolvado un libro instruccional de Joe Satriani en el cual recomendaba esta técnica para salir de la rutina diaria. Las escalas a una cuerda pueden practicarse tanto con pua alterna (alternate picking) como ligados, etc. La idea es ver las escalas desde otro punto de vista, un punto de vista más lineal del que nos tienen acostumbrados normalmente.

Los ejercicios que os presento cubren las escalas de F Mayor, C dórica, E armónica menor y D frigia dominante. Veréis que las notas se agrupan en patrones de tres. Esto es solamente una base, a partir de aquí podemos variar la técnica utilizada para recorrer las escalas a una sola cuerda, usar diferentes patrones, escalas, ritmos, técnicas de pulsación, de abajo-arriba o arriba-abajo etc.

Os dejo los ejercicios en formato Guitar Pro y en texto plano:

Ejercicio 1: F Mayor

Ejercicio escalas: F Mayor formato Guitar Pro


E|-1---3---5---3---5---6---5---6---8---6---8---10--|
B|-------------------------------------------------|
G|-------------------------------------------------|
D|-------------------------------------------------|
A|-------------------------------------------------|
E|-------------------------------------------------|


E|-8---10--12--10--12--13--12--13--15--13--15--17--|
B|-------------------------------------------------|
G|-------------------------------------------------|
D|-------------------------------------------------|
A|-------------------------------------------------|
E|-------------------------------------------------|

E|-17--15--13--15--13--12--13--12--10--12--10--8---|
B|-------------------------------------------------|
G|-------------------------------------------------|
D|-------------------------------------------------|
A|-------------------------------------------------|
E|-------------------------------------------------|

E|-10--8---6---8---6---5---6---5---3---5---3---1---|
B|-------------------------------------------------|
G|-------------------------------------------------|
D|-------------------------------------------------|
A|-------------------------------------------------|
E|-------------------------------------------------|

Ejercicio 2: C Dórico

Ejercicio escalas C Dórico formato Guitar Pro

E|-------------------------------------------------|
B|-1---3---4---3---4---6---4---6---8---6---8---10--|
G|-------------------------------------------------|
D|-------------------------------------------------|
A|-------------------------------------------------|
E|-------------------------------------------------|

E|-------------------------------------------------|
B|-8---10--11--10--11--13--11--13--15--3---15--16--|
G|-------------------------------------------------|
D|-------------------------------------------------|
A|-------------------------------------------------|
E|-------------------------------------------------|

E|-------------------------------------------------|
B|-16--15--13--15--13--11--13--11--10--11--10--8---|
G|-------------------------------------------------|
D|-------------------------------------------------|
A|-------------------------------------------------|
E|-------------------------------------------------|


E|-------------------------------------------------|
B|-10--8---6---8---6---4---6---4---3---4---3---1---|
G|-------------------------------------------------|
D|-------------------------------------------------|
A|-------------------------------------------------|
E|-------------------------------------------------|

Ejercicio 3: E Armónica Menor

Ejercicio escalas E Armónica menor formato Guitar Pro

E|-------------------------------------------------|
B|-------------------------------------------------|
G|-9---11--12--14--16--17--20--21--20--17--16--14--|
D|-------------------------------------------------|
A|-------------------------------------------------|
E|-------------------------------------------------|

E|-------------------------------------------------|
B|-------------------------------------------------|
G|-12--11--9---8---5---4---2---0---2---4---5---8---|
D|-------------------------------------------------|
A|-------------------------------------------------|
E|-------------------------------------------------|

E|-------------------------------|
B|-------------------------------|
G|-9-----------------------------|
D|-------------------------------|
A|-------------------------------|
E|-------------------------------|

Ejercicio 4: D Frigia Dominante

Ejercicio escalas D Frigia dominante formato Guitar Pro
E|-------------------------------------------------|
B|-------------------------------------------------|
G|-------------------------------------------------|
D|-------------------------------------------------|
A|-5---6---9---10--12--13--15--17--18--21--22--21--|
E|-------------------------------------------------|


E|-------------------------------------------------|
B|-------------------------------------------------|
G|-------------------------------------------------|
D|-------------------------------------------------|
A|-18--17--15--13--12--10--9---6---5---3---1---0---|
E|-------------------------------------------------|

E|----------------------------------------|
B|----------------------------------------|
G|----------------------------------------|
D|----------------------------------------|
A|-1---3---5---6---9---6---5--------------|
E|----------------------------------------|

Espero que os sirvan de ayuda, ante cualquier duda o sugerencia podéis comentar más abajo.