Ejercicios escala pentatónica mayor de Si

Vamos a trabajar sobre unos ejercicios bastante interesantes (alguno complicadillo…) de la escala pentatónica mayor de Si:

Escala pentatónica de SI: B – C♯ – D♯ – F♯ – G♯ – B

En primera instancia os dejo algo muy importante para poder ampliar estos ejercicios en todo el diapasón, la escala pentatónica mayor de Si en todo el mástil, pinchad en la imagen para ampliar:

Vamos con los ejercicios:

Ejercicio 1:

En este ejercicio trabajamos con grupos de tres notas. La ejecución puede depender de cada uno, ya que puede realizarse con técnica de púa contrapúa o con sweep picking, personalmente me parece más rápida la técnica del sweep en este caso, aunque mantener limpieza en la ejecución puede ser más complicado:


E ----------------------------------4-----7-7-----4----------------------------
B ----------------------4-----7---4-----7-----7-----4---7-----4----------------
G ----------4-----6---4-----6---4-----6---------6-----4---6-----4---6-----4----
D ----6---4-----6---4-----6---------------------------------6-----4---6-----4--
A --6---4-----6---------------------------------------------------------6-----4
E 7----------------------------------------------------------------------------


E -------
B -------
G -------
D -6-----
A ---6---
E -----7-

Ejercicio 2:

E -------------------------------4---7-7---4-------------------------------
B -----------------------4---7-4---7-----7---4-7---4-----------------------
G ---------------4---6-4---6---------------------6---4-6---4---------------
D -------4---6-4---6-------------------------------------6---4-6---4-------
A ---6-4---6-----------------------------------------------------6---4-6---
E -7---------------------------------------------------------------------7-

Ejercicio 3:

Este ejercicio es bonito pues su ejecución simula un arpegio pero tocando las notas por parejas, primero tocas la primera nota y la cuarta, después la segunda y la quinta, después la tercera y la sexta, etc.

E ---------------------------4---7-7---4---------------------------
B -------------------4---7-----4-----4-----7---4-------------------
G -----------4---6-----4---6-------------6---4-----6---4-----------
D ---4---6-----4---6-----------------------------6---4-----6---4---
A -----4---6---------------------------------------------6---4-----
E -7-------------------------------------------------------------7-

Esto es todo por hoy, ¡a practicar!

Gracias a all-guitar-chords.com por su aplicación para generar gráficos de diapasones con escalas.