Cómo leer tablaturas para guitarra

Para alguien que comienza a tocar la guitarra eléctrica, lo más útil suele ser aprender lo primero cómo leer las tablaturas, ya que es el formato más extendido en Internet y resulta más sencillo de leer que las partituras. Digo guitarra eléctrica porque por el contrario cuando se empieza con guitarra clásica se suele aprender a la vez solfeo y notación en partitura.

Como vais a comprobar, leer tablaturas no tiene demasiada complejidad, en el momento que entendáis los siguientes conceptos básicos lo dominaréis en pocos minutos.

Cada línea representa una cuerda de la guitarra


E|---------------------------------------|
B|
---------------------------------------|
G|---------------------------------------|
D|---------------------------------------|
A|---------------------------------------|
E|---------------------------------------|

Este ejemplo muestra una tablatura vacía. Cada una de las líneas discontinuas representa una cuerda, comenzando por la primera cuerda (E aguda) en la línea superior y la sexta cuerda (E grave) en la línea inferior:

  • 1ª cuerda de la guitarra (E / Mi).
  • 2ª cuerda de la guitarra (B / Si).
  • 3ª cuerda de la guitarra (G / Sol).
  • 4ª cuerda de la guitarra (D / Re).
  • 5ª cuerda de la guitarra (A / La).
  • 6ª cuerda de la guitarra (E / Mi).

Cada número representa el traste de la cuerda sobre el que se toca


E|---------------------------------------|
B|
---------------------------------------|
G|---------------------------------------|
D|---------------------------------------|
A|---------5--7--------------------------|
E|---5--8--------------------------------|

En este ejemplo, tocaríamos primero la nota del 5º traste en la 6ª cuerda, después la nota del 8º traste en la 6ª cuerda, después la nota del traste 5º de la 5ª cuerda y finalmente la nota del traste 7º en la 6ª cuerda. En este caso se tocaría una nota después de otra, pero también se pueden tocar varias notas a la vez como acordes o doublestops:


E|---------------------------------------|
B|
---------------------------------------|
G|---------------------------------------|
D|---------7-----------------------------|
A|---7-----5-----------------------------|
E|---5-----------------------------------|

Y también podemos tocar acordes como si fueran arpegios, tocando una nota tras otra, lo hacemos también con el acorde de Em pero una nota tras otra:


E|---------------------------------------|
B|
---------------------------------------|
G|---------------------------------------|
D|---------7-----------------------------|
A|---7-----5-----------------------------|
E|---5-----------------------------------|

En este ejemplo se puede ver que se tocan dos acordes de quinta, primero el acorde de A5 tocando a la vez las notas del traste 5 en la 6ª cuerda y el traste 7 de la 5ª cuerda y después un acorde de D5 tocando a la vez las notas del quinto traste de la 5ª cuerda y el 7ª traste de la cuerda 4ª.

Otro ejemplo sería de acordes que implican todas las cuerdas, sería lo mismo pero involucrando más cuerdas, aquí podéis ver un acorde de Em, cuando se pone un 0 (cero) significa que la cuerda se toca al aire, sin presionar ningún traste, se tocarían todas las notas a la vez:


E|--------------0--|
B|
------------0----|
G|----------0------|
D|--------2--------|
A|------2----------|
E|---0-------------|

Problema: las tablaturas no tienen rítmica

El mayor problema de la tablatura es que no existe la posibilidad de mostrar la rítmica de las notas, es decir, no sabemos si las notas son negras, corcheas, fusas, hay silencios, tresillos, etc. Por este motivo se suelen publicar las tablaturas acompañadas de la partitura para poder visualizar el ritmo y solfeo de la pieza. No obstante, para principiantes no debería ser un problema mayor porque seguro que están tocando una tablatura de una canción que tienen y así pueden escuchar el ritmo y velocidad de las notas.

Símbolos y efectos en las tablaturas

Las tablaturas están llenas de símbolos y letras que representan distintas técnicas y efectos que se suelen hacer con la guitarra, como por ejemplo los hammer-on, pull-off, slide, tapping, palm muting, etc. Estos son los más comunes:

Hammer On y Pull Off

El Hammer On se representa con la letra «h» y el Pull Off con la «p». Normalmente la letra va entre las dos notas que se ligan con esta técnica. En el siguiente ejemplo se hace un Hammer On desde el traste 9 al 12 de la 3ª cuerda y un Pull Off desde el traste 12 al 10 de la 4ª cuerda. Si no entendéis muy bien estas dos técnicas revisad esta otra entrada:

Lecciones de guitarra para principiantes: Hammer-On y Pull-Off


E|-------------|
B|-------------|
G|-9h12--------|
D|------12p10--|
A|-------------|
E|-------------|

Vibrato

El vibrato se representa con los símbolos «~», «=» o la letra «v».Más información sobre el vibrato:

Lecciones de guitarra: el vibrato


~~~~~~
E|---------|
B|---------|
G|-9-------|
D|---------|
A|---------|
E|---------|

Slide

El slide se representa con la letra «s» o el símbolo «/» y «\». En el siguiente ejemplo se hace un slide hacia el traste 9 de la 3ª cuerda.


E|---------|
B|---------|
G|---/9----|
D|---------|
A|---------|
E|---------|

Bend

Los bendings se representan de varias formas, una de ellas es con la letra «b», otra con el símbolo «^» y otra entre paréntesis «()». Normalmente el símbolo lo veremos entre dos notas, significa que la primera es la que se toca y la segunda a la cual tenemos que llegar con el bending:


E|---------|
B|---------|
G|-9b11----|
D|---------|
A|---------|
E|---------|

Palm Muting

El Palm Muting, o cualquier nota apagada se suele representar con la letra «x», también con las letras PM seguidas de «….» mientras se siga realizando. Realmente la «x» es más para notas apagadas o mudas y PM para el Palm Muting.

Lecciones de guitarra para principiantes: El palm muting


e|-------------------------|
b|-------------------------|
g|-------------------------|
d|-9--------9--------9-----|
a|-7--7--7--7--7--7--7-----|
e|-------------------------|
PM.. PM .. (2ª y 3ª nota, y 5ª y 6ª)

Púa – contrapúa

Para representar si la nota se toca con la púa hacia arriba o hacia abajo se utiliza la letra «v» para el «downstroke» o púa hacia abajo y el símbolo «^» para el «upstroke» o nota hacia arriba. También se suele utilizar la letra «d» para el downstroke y la «u» para el upstroke. Más información de Alternate Picking.

d u d u d etc
|-0--0--0--0--3--3--3--3--4--4--4--4--7--7--7--7-|
|------------------------------------------------|
|------------------------------------------------|
|------------------------------------------------|
|------------------------------------------------|
|------------------------------------------------|


v
^ v ^ v etc
|-0--0--0--0--3--3--3--3--4--4--4--4--7--7--7--7-|
|------------------------------------------------|
|------------------------------------------------|
|------------------------------------------------|
|------------------------------------------------|
|------------------------------------------------|

Véis que es todo muy básico y simplemente requiere un poco de práctica. En pocas horas deberíais manejar con soltura la lectura de tablaturas. Si tenéis cualquier duda podéis decirla en los comentarios.