Ejercicios para mejorar la técnica de púa.

Mejorar la técnica de púa implica trabajo constante, diariamente deberás dedicar tiempo a ejercicios de púa-contrapúa, movimientos económicos de púa (“economy picking“), barridos, etc.
Para lograr un sonido límpio, claro y uniforme, es imprescindible trabajar siempre con un metrónomo, aumentando progresivamente la velocidad conforme nos sintamos más cómodos con el ejercicio, siempre manteniendo el tiempo, preferiblemente tocad con un tono limpio sin distorsión al practicar los ejercicios.

Elegir una púa es algo personal, prueba todas las que puedas y quedate con la que más agusto te sientas. Las hay de diferentes formas, tamaaños y grosores:

variedad de puas

Lo mismo ocurre con la forma de coger la púa, cada guitarrista tienen un modo distinto de hacerlo, ninguno es mejor/peor que otro, dependerá, igual que antes, de como toques mejor y más cómodo te sientas. No obstante, aquí tenéis una imagen de la posición, que a mi entender, es adecuada:

Posicion mano derecha
Imagen del sitio theguitarsuite.com

Sin más preambulos, vamos con unos cuantos ejercicios para practicar diariamente que podrán mejorar nuestra técnica (recordad los ejercicios de calentamiento, pues en gran parte son muy importantes para esta técnica).

Leyenda de los ejercicios:

u upstroke (movimiento de púa hacia arriba)
d downstroke (movimiento de púa hacia abajo)

La digitación está puesta debajo de cada tablatura:

4: meñique
3: anular
2: medio
1: indice

Ejercicios a una sola cuerda:

Estos ejercicios se realizan en grupos de cuatro notas y en una misma cuerda, ideal para la sincronización entre la mano izquierda y derecha, puede ser practicado en cualquier cuerda, sobre todo empezad despacio. Podéis utilizarlo con los dedos de la mano izda que prefiráis, incluso con uno cada vez, lo importante en este ejercicio es la mano derecha.

Ejercicio 1:

d u d u d etc
|-0--0--0--0--3--3--3--3--4--4--4--4--7--7--7--7|-8--8--8--8--11--11--11--11
|------------------------------------------------|--------------------------
|------------------------------------------------|--------------------------
|------------------------------------------------|--------------------------
|------------------------------------------------|--------------------------
|------------------------------------------------|--------------------------

12--12--12--12--15--15--15--15-|-16--16--16--16--15--15--15--15--12--12--12
--------------------------------|-------------------------------------------
--------------------------------|-------------------------------------------
--------------------------------|-------------------------------------------
--------------------------------|-------------------------------------------
--------------------------------|-------------------------------------------

-12--11--11--11--11-|-8--8--8--8--7--7--7--7--4--4--4--4--3--3--3--3--||
--------------------|-----------------------------------------------------||
--------------------|-----------------------------------------------------||
--------------------|-----------------------------------------------------||
--------------------|-----------------------------------------------------||
--------------------|-----------------------------------------------------||

Ejercicio 2:

d u d u etc
|-4-3-2-1-5-4-3-2-6-5-4-3-5-4-3-2-|-6-5-4-3-7-6-5-4-8-7-6-5-7-6-5-4-|-8-7-6-
|---------------------------------|---------------------------------|-------
|---------------------------------|---------------------------------|-------
|---------------------------------|---------------------------------|-------
|---------------------------------|---------------------------------|-------
|---------------------------------|---------------------------------|-------
4 3 2 1 4 3 2 1 4 3 2 1 ....etc (digitación)

-5-9-8-7-6-10-9-8-7-9-8-7-6-|-10-9-8-7-11-10-9-8-12-11-10-9-11-10-9-8-||
----------------------------|-----------------------------------------||
----------------------------|-----------------------------------------||
----------------------------|-----------------------------------------||
----------------------------|-----------------------------------------||
----------------------------|-----------------------------------------||

Ejercicios a dos/tres cuerdas:

Aquí tenéis tres patrones distintos para atacar notas en dos cuerdas distintas, mantened las dos manos relajadas en todo momento, y ayudaros con el metrónomo para ir ganando velocidad:
Figura 1 (dificil) Figura 2 (fácil)

|----------------------------|| |-------------------------||
|---------------8------------|| |-------5--6--8--6--5-----||
|-----7--9--10-----10--9--7--|| |-5--7-----------------7--||
|-10-------------------------|| |-------------------------||
|----------------------------|| |-------------------------||
|----------------------------|| |-------------------------||
4 1 3 4 2 4 3 2 (digitación)      1 3 1 2 4 2 1 3(digitación)

Fig 3 (fácil)

|-------------------------||
|----------6--8--6--------||
|-5--7--9-----------9--7--||
|-------------------------||
|-------------------------||
|-------------------------||

  1 3 4 2 4 2 4 3 (digitación)

Estos dos patrones trabajan la escala pentatónica, también a dos y tres cuerdas y siguiendo las mismas instrucciones que los anteriores

|-------------------------------------------------||
|-------------------------------------------------||
|-7--5--------7--5--------7--5--------7--5--------||
|-------7--5--------7--5--------7--5--------7--5--||
|-------------------------------------------------||
|-------------------------------------------------||

  3 1 3 1 3 1 3 1...etc (digitación)

|-------------------------------------------------||
|-------------------------------------------------||
|----------5--7--5-----------------5--7--5--------||
|----5--7-----------7--5-----5--7-----------7--5--||
|-7-----------------------7-----------------------||
|-------------------------------------------------||
  3 1 3 1 3 1 3 1...etc (digitación)
Ejercicios a múltiples cuerdas:

En este caso utilizamos la escala pentatónica por todas las cuerdas, seguid con la técnica de púa-contrapúa.

|------------------------------------------------|--------------------------
|------------------------------------------------|-------------5------------
|-------------------------------------5----------|-------5--7-----7--5------
|-------------5-----------------5--7-----7--5----|-5--7-----------------7---
|-------5--7-----7--5-----5--7-----------------7-|--------------------------
|-5--8-----------------8-------------------------|--------------------------

  1 4 1 3 1 3 1 4 1 3 1 3 1 3...etc (digitación)

-------------5----------|-------5--8--5----------------------------------|
-------5--8-----8--5----|-5--8-----------8--5-----------5--8--5----------|
-5--7-----------------7-|----------------------7--5--7-----------7--5----|
------------------------|----------------------------------------------7-|
------------------------|------------------------------------------------|
------------------------|------------------------------------------------|

|------------------------------------------------||
|------------------------------------------------||
|-------5--7--5----------------------------------||
|-5--7-----------7--5-----------5--7--5----------||
|----------------------7--5--7-----------7--5----||
|----------------------------------------------8-||

Esto es todo por ahora, practicando diariamente estos ejercicios, notaréis con el paso del tiempo una mejora sustancial en vuestra técnica y velocidad. No me cansaré de decirlo, siempre comenzad despacio y utilizad el metrónomo para trabajar los ejercicios, es vuestro mejor aliado para lograr una velocidad constante.
Podéis encontrar estos y más ejercicios en http://www.ultimate-guitar.com

 

42 comentarios en “Ejercicios para mejorar la técnica de púa.”

  1. LUIS dice:

    MA HAN SERVIDO DE MUCHO LAS TECNICAS GRACIAS ESPERO Y ME MANDEN MATERIAL A MICORREO

  2. Alex dice:

    Hola Luis,

    Me alegro de que te hayan servido! pronto pondré más ejercicios, si quieres recibirlos directamente en el correo puedes hacerlo siguiendo los pasos que te dicen en este enlace:

    http://www.feedburner.com/fb/a/emailverifySubmit?feedId=1035675&loc=es_ES

    Gracias por visitar el blog!

  3. ADRIAN dice:

    buenas me interesariasn unos buenos ejersicios de velocidad de nivel medio avanzado gracias

  4. Alex dice:

    Hola Adrián:

    Si descargas el libro de Paul Gilbert del siguiente enlace encontrarás muy buenos ejercicios

    http://desafinados.es/paul-gilbert-terrifying-guitar-trip/

    Saludos

  5. Trackback: Desafinados.es
  6. rafa dice:

    lo siento pero soy novato, y todos los ejercicios, para mi, tienen el mismo problema. vosotros ponéis la cuerda que hay que tocar, pero con el dedo que se debe tocar. Lo digo porque como tampoco se si hay que tocarlo con algún dedo en cuestión, para que sea mas fácil, pues eso, me gustaría saber dónde poner los dedos 1 2 3 y 4…

    gracias y perdonar el tonillo, no va en plan duro ;-)
    rafa

  7. Alex dice:

    Hola Rafa.
    Me has pillado con un rato libre así que he actualizado el artículo poniendo la digitación más adecuada (en mi opinión). Espero que así puedas practicar los ejercicios. Si tienes cualquier duda lo comentas y lo miramos.

    Y no hay nada que perdonar, estos artículos los hago para que podáis practicar, así que si algo está incompleto hay que decirlo. GRACIAS ;)

  8. Fer dice:

    HOLA, MUY BUENOS LOS EJERCICIOS, PERO MI DUDA ES, COMO ES LA POSICIÓN DE LA MANO DERECHA? CUANDO UNO TOCA CON PÚA VA PEGADA L GUITARRA O NO?

    1. Gabriel dice:

      pues eso depende de tu comodidad, yo por ejemplo me acomodo de abajo hacia arria pero todo depende de ti………… suerte y que santana te guie en el camino de la musika.

  9. Alex dice:

    Hola Fer.

    Tienes que poner la mano derecha como sale en la segunda imagen del artículo. Apóyala ligeramente sobre el puente de la guitarra mas o menos, donde a ti veas que más cómodo te parece.

    Saludos!

  10. Juan dice:

    Hola, es muy interesante la propuesta que se da,. La duda es la sigte, ciertamente los ejercicios son para guitarra electrica y de nylon, pero creo que el enfasis va hacia la electrica si no me equivoco, ahora bien, las preguntas son para con las guitarras de nylon:
    La muñeca puede quedar pegada a las cuerdas cuando se maneja la pua y cual es la diferencia?
    Habran visto como maneja Al di meola su tècnica de pua, y como se logra esa tècnica?
    Que sitios puedo encontrar donde se traten mas tècnicas para con cuerdas de nylon con técnicas de pua?
    Gracias desde ya

  11. victor dice:

    hola que tal muy buenos los ejercisios,te queria preguntar algunos ejercisios para mejorar mi tecnica de barrido o sweep picking ,yapgo sobre ligados ya que me gustaria conocer ,ya que hay muchos ,pero solo conosco los basicos ,grasias ,suerte,,,

  12. Bruno dice:

    Creo que soy un madera para la púa xD

  13. julian dice:

    hola una hay algun problemasi agarro la pua con 3 dedos??

  14. Alex dice:

    Paul Gilbert comenzó agarrando la púa con 3 dedos, y posteriormente según él, depurando su técnica paso a la más común de dos dedos.

    La verdad, si a ti te funciona bien, adelante!

  15. Trackback: Desafinados.es
  16. colfrax dice:

    la ultima se parece al solo de stairway to heaven
    muchas gracias
    espero que pongan mas

  17. Xisco99 dice:

    Muy buenas!! Aqui otro novatillo que esta hasta las narices de la pua xDD

    Mi problema en question es que no se si agarro bien la pua, pues al tocar de pie, se me va moviendo hasta que ya, envez de tocar con la punta, le doy con los lados y se me gira completamente xDDD. ¿Algun consejo mas sobre como agarrar la pua o lo que sea? jajaja. Muchas gracias, es que ya estoy hasta las narices con la dichosa pua jejeje

    Saludooos^^!!

  18. Alex dice:

    Hola Xisco99!

    Un poco raro lo que te pasa con la pua, puede que este vídeo de Paul Gilbert te ayude con ese problema:

    http://www.youtube.com/watch?v=CpJNUGHxC3M

    Sino quizás deberías probar con otras marcas de púa, otras medidas, grosores, etc para agarrarla bien.

    Saludos

    1. David dice:

      A mi me ocurre exactamente lo mismo que a el, pero no en este tipo de ejercicios sino en rasgueos de acordes, hace poco un amigo me pregunto si podia tocar by the way de los red hot chili peppers, y gran parte de la cancion es haciendo rasgueos rapidos sobre las cuerdas muteadas, y ahi se me empieza a rodar la pua hacia adelante hasta que acabo con ella de lado, y si no pues se me van bajando los dedos hasta la punta y me destrozo los nudillos contra las cuerdas. He probado a agarrarla mas fuerte, pero de esta manera los acordes suenan muchisimo mas toscos y feos y ademas pierdo bastante inercia en la muñeca y queda un movimiento mas torpe porque la pua opone mas resistencia, en general la pua normalmente siempre esta bailando en mis dedos cuando rasgueo, pero cuando son rasgueos mas rapidos o mas continuados esto se acentua muchisimo y muchas veces se me cae la pua en mitad de una cancion. A ver si me puedes aconsejar algo ;) un saludo y muy buen articulo

  19. paulaaangas dice:

    muy bueno los ejercicios, quizas lo que le pasa con la pua es que se le resbala, ahi alguna que son antideslizantes, podrias probar con eso, aunque ami igual se me resbalada, luego con el tiempo agarras el ritmo, saludos, gracias

    1. Alex dice:

      Si sudas mucho en las manos te pasará, lo mejor es lo que dices, utilizar púas especiales que tienen una textura que hace que no se deslice nada entre los dedos.

      Saludos

      1. javier sanchez dice:

        Por cierto, estos ejercicios vienen de un articulo que Steve Vai hizo en los noventa para la revista Guitar World, eran 10 hours work out, y en general era muy interesante, luego saco la “extended version” que ya es demasiado….

  20. aldher dice:

    que buenos ejercicios los pondre en practica

  21. Mickmetallico dice:

    Tengo una duda sobre como tocar con la púa.
    Bueno, yo agarro la púa con el dedo pulgar y el índice, no se si es correcto pero agarro la púa dejando muy poco espacio de la punta para asi tener mayor control, pero al darle a la cuerda, mi dedo índice roza suavemente la cuerda de abajo, por ejemplo, al hacer un downstroke a la 6ta cuerda, rozo con el dedo índice la 5ta cuerda sin hacerla sonar. Uso un plectro Dunlop nylon de 2mm.

    Por favor, agradecería una aclaración, consejo o tips.

  22. gabriel dice:

    Excelente, yo antes tocaba con los dedos y ahora se me hace un poco dificil aprender con pua, pero espero que estos ejercicios me ayuden…

  23. fran dice:

    hola! Tengo un problema y esque no se como hacer para conseguir mas rapidez a la hora de tocar un acorde con la pua solo para abajo. Me cuesta hacerlo muy rapido y no se que hacer para cojer mas rapidez. Gracias. :)

  24. briann dice:

    hola! yo tengo el problema que me acostumbre a tocar para abajo, uso la tecnica de siempre abajao y arriba pero cuando tengo que cambiar de cuerdo siempre toco para abajo venga como venga no se si me explico jeje y ahra que toco con un tipo que sabe un monton me esta haciendo cambiar eso pero me cuesta cambiar los temas ahora y a veces me confundo xq no se que tecnica usar!
    je je saludos!

  25. Pepe dice:

    Hola Briann. Es cuestión de tener paciencia. Recuerdo que a mi me pasaba que según la cuerda y según si tocaba 2 o 3 notas por cuerda me cambiaba la dirección de ejecución de la púa. También me pasaba con los dedos, ya que para hacer escalas pulso con los dedos índice y medio de la mano derecha, y también me ocurría lo mismo, según la cuerda y si tocaba 2 o 3 notas repetia de dedo.
    Es sólo práctica y en una semanita seguro que te acostumbras; eso sí: no seas permisivo contigo mismo y si te equivocas, paras y repites el ejercicio desde el principio. Ya verás como en poco tiempo lo dominas.

  26. Diego dice:

    Hey Alex tengo una idea para un post, como le haria para hacertela llegar, es un truco casero que descubri para hacer un muy util pick holder.

  27. EDISON dice:

    Si alguien me puede ayudar explicando como es lo de la digitacion es que estoy empezando recien pero le meto todo el impetu para lograr hacer los ejercicios si alguien me podria explicar puesto que no se si lo estoy haciendo bien. Gracias.

  28. maru dice:

    una cagada esto!

  29. martin dice:

    estan muy byenos los ejercicios me rre cirvieron gracias

  30. ANDRES dice:

    CHEVERES LOS EJERCICIOS SI ME SIRVIERON

  31. alexander dice:

    hola yo tengo 13 anios y hace 1 anio que toco la guitarra y te queria preguntar si las cuerdas (en este caso una sola cuerda) se tocan de abajo para arriba o de arriba para abajo con la pua.

    gracias

    1. Elcho dice:

      El movimiento de la pua siempre es arriba y abajo consecutivamente.
      Tenes que hacer los ejercicios empezando arriba, abajo, arriba, abajo, etc. hasta el final, despues empeza de nuevo haciendo abajo, arriba, abajo, arriba.

      Lo mejor para tu tecnica es que te bajes Rock Discipline de John Petrucci.
      Es todo lo que necesitas.

  32. TAVO dice:

    ola q onda miren con una pregunta no se como se leen esos compases porq solo aprendi con notas de do, re, mi…..si como puedo aprender mas facil y rapido

  33. leo dice:

    voy a probar a ver si mejoro,gracias por la ayuda

  34. ANGEL POMAQUERO dice:

    nesesito alguna tecnica para mejor la velocidad en mis dedos para entonar la guitarra

  35. pablo dice:

    ola tengo un problrma mis dedos son largos pero cuando punteo mi dedo meñique apreta chueco
    y no lo puedo poner tan recto y m lastima l dedo x k choca la uña te rogaria k mes una sugerencia x favor xk esohace k no pueda mejorar

    1. Courage dice:

      Primero aprende a escribir y luego aprende a tocar la guitarra, porque tu mensaje hace daño a la vista.

      Además suena a gilipollez tu comentario, ¿qué es eso de tocar con las uñas largas en la mano del mástil? Una aberración, porque aparte de no sonar bien vas a cargarte el acabado del diapasón o te cargarás la madera si no tiene acabado.

      En fin, cuánto animal suelto… A ver si los meten ya en el zoo e internet será un lugar mejor.

  36. Javier dice:

    Hola. llevo un par de años tocando guitarra y necesito ayuda, bueno yo tengo una guitarra acustica y una guitarra electrica mi duda es que cuando algun punteo en una cerda y paso a otra la anterior cuerda sigue sonando y necesito apagar ese sonido pero no se como, necesito ayuda.
    Saludos.

Deja un comentario

Tu dirección de correo electrónico no será publicada. Los campos obligatorios están marcados con *