La escala hindú

Retomando la búsqueda de escalas exóticas, esta vez vamos a hablar de la escala hindú. La escala hindú tiene origen en el quinto modo de la escala melódica menor ascendente, y también suele llamarse modo Eólico dominante, usándose en este caso principalmente sobre los acordes dominantes:

  • Escala melódica menor ascendente: 1, 2, ♭3, 4, 5, 6, 7
  • Escala hindú: 1, 2, 3, 4, 5, ♭6, ♭7

A continuación podéis ver la escala hindú de C a lo largo de todo el diapasón, así mismo os dejo un par de ejercicios para que podáis comenzar a trabajar con ella.

Escala hindú (modo Eólico dominante), trastes 1 al 11:

Escala hindú
Diapasón virtual generado desde All Guitar Chords

Escala hindú (modo Eólico dominante), trastes 12 al 22:

Escala hindú
Diapasón virtual generado desde All Guitar Chords

Tablaturas con ejemplos de patrones combinados:

|---------------------------------------------------------------10-12-13---
|--------------------------------------------------8--9-11-13---------------
|----------------------------------------7--9-10-----------------------------
|---------------------------5--6--8-10---------------------------------------
|---------------3--5--7--8----------------------------------------------------
|------3--4--6----------------------------------------------------------------


|-----13-12-10----------------------------------------------------------
|-----------------13-11--9-----------------------------------------------
|----------------------------12-10--9------------------------------------
|---------------------------------------12-10--8-------------------------
|--------------------------------------------------11-10--8--------------
|-------------------------------------------------------------12-10--8---

Personalmente se trata de la primera vez que trabajo con esta escala, así que si alguien dispone de más información y conocimientos sobre ella, así como teoría o acordes sobre los que se suele utilizar serán bien recibidos.