Ejercicios para fortalecer el meñique

Hace un tiempo ya publiqué unos ejercicios para incrementar y fortalecer la fuerza en los dedos de la mano izquierda, no obstante he encontrado en Ultimate Guitar unos cuantos, centrados en el dedo meñique que creo os pueden ayudar a entrenar este dedo normalmente olvidado. Os dejo unos cuantos, podéis acceder a todos si os gustan a través de este enlace.

e|------------------------------------------------------|
B|------------------------------------------------------|
G|------------------------------------------------------|
D|------------------------------------------------------|
A|--2-0-----2-0--------0000-2-0-------------------------|
E|------3-------3--3333---------3-----------------------|
dig:3 4 3 4 4444 3 4


E|-----------------------------------------------------------------|
B|-----------------------------------------------------------------|
G|-------------------------7-8----8-7------------------------------|
D|----------------7-8---------------------8-7----------------------|
A|--------7-8--------------------------------------8-7-------------|
E|---5-6------5-6-----5-6-------------6-5-----6-5------6-5---------|
digi:1 2 3 4 1 2 3 4 1 2 3 4 4 3 2 1 4 3 2 1 4 3 2 1

E|-------------------------------------------------------------------|
B|-------------------------------------------------------------------|
G|---------------------------------------------7h8p7h8p7h8p7---------|
D|-------------------------------7h8p7h8p7h8p7-----------------------|
A|-----------------7h8p7h8p7h8p7-------------------------------------|
E|---7h8p7h8p7h8p7---------------------------------------------------|
digi:3 4 3 4 3 4 3 3 4 3 4 3 4 3 3 4 3 4 3 4 3 3 4 3 4 3 4 3

E|----------10----------10-12--------10-12-13^15--------|
B|-------------13^15----------13^15---------------------|
G|------------------------------------------------------|
D|------------------------------------------------------|
A|------------------------------------------------------|
E|------------------------------------------------------|
digitacion: 1 4 1 3 4 1 3 4

 

Un comentario en “Ejercicios para fortalecer el meñique”

  1. cesar guerra dice:

    quería agradecer por tenerme en cuenta con estas capacitaciones tan interesantes y formativas. Si es posible quisiera pedir que me enviarán también esta información en partitura.
    Muchas gracias

Deja un comentario

Tu dirección de correo electrónico no será publicada. Los campos obligatorios están marcados con *