Ejercicios de guitarra: escala menor armónica de Do

Hoy os dejo cinco ejercicios basados en la escala menor armónica de C (Do), básicamente son ejercicios de técnica púa/contrapúa en modo ascendente, en los que hay 3 notas por cuerda, útiles para conocer los patrones de esta escala en la tonalidad de Cm:

Nota: Los dos últimos ejercicios son extensiones cruzadas de las escalas, por lo que en algunas cuerdas se tocarán cuatro notas.

Ejercicio 1:

|------------------------------------------10-11-13-15-------|
|----------------------------------9-12-13-------------------|
|--------------------------8-10-12---------------------------|
|------------------9-10-12-----------------------------------|
|----------8-10-11-------------------------------------------|
|--8-10-11---------------------------------------------------|

Ejercicio 2:

|------------------------------------------8-10-11----------|
|----------------------------------8-9-12-------------------|
|--------------------------7-8-10---------------------------|
|------------------6-9-10-----------------------------------|
|----------6-8-10-------------------------------------------|
|--7-8-10---------------------------------------------------|

Ejercicio 3:

|--------------------------------------7-8-10---------------|
|-------------------------------6-8-9-----------------------|
|------------------------5-7-8------------------------------|
|-----------------5-6-9-------------------------------------|
|----------5-6-8--------------------------------------------|
|--4-7-8----------------------------------------------------|

Ejercicio 4 (Extensión cruzada):

|----------------------------------------------------13-15-16-|
|----------------------------------------12-13-15-16----------|
|-------------------------------10-12-13----------------------|
|--------------------9-10-12-13-------------------------------|
|------------8-10-11------------------------------------------|
|--7-8-10-11--------------------------------------------------|

Ejercicio 5 (Extensión cruzada):

|---------------------------------------------10-11-13-15-|
|-----------------------------------8-9-12-13-------------|
|----------------------------7-8-10-----------------------|
|------------------5-6-9-10-------------------------------|
|-----------5-6-8-----------------------------------------|
|--3-4-7-8------------------------------------------------|

 

2 comentarios en “Ejercicios de guitarra: escala menor armónica de Do”

  1. jose daniel dice:

    a lluda para un guitarrista sin guitarra para tocar

  2. Pepe dice:

    Podeis encontrar esta escala y muchas más aquí.

    http://www.teoria.com/aprendizaje/escalas/sc-tool.htm

Deja un comentario

Tu dirección de correo electrónico no será publicada. Los campos obligatorios están marcados con *