Jamorama - Lecciones de Guitarra

Browse By

Patrones de la escala menor melódica de Do (C)

Hace un tiempo entramos un poco en matería referente a la escala menor melódica (menor de Jazz), hoy vamos a aprender unos cuantos patrones que nos ayudarán a coger soltura con esta escala. En este caso son patrones de la escala menor melódica de Do (C):

Patrón traste 1:

E||----------------------------------1-3-5-|
B||------------------------------3-4-------|
G||-----------------------2-4-5------------|
D||----------------1-3-5-------------------|
A||---------2-3-5--------------------------|
E||---1-3-5--------------------------------|

Patrón traste 3:

E||-----------------------------------3-5-7-|
B||----------------------------3-4-6--------|
G||-----------------------4-5---------------|
D||----------------3-5-7--------------------|
A||---------3-5-6---------------------------|
E||---3-5-7---------------------------------|

Patrón traste 5:

E||----------------------------------5-7-8-|
B||------------------------------6-8-------|
G||-----------------------5-7-8------------|
D||----------------5-7-9-------------------|
A||---------5-6-8--------------------------|
E||---5-7-8--------------------------------|

Patrón traste 7:

E||---------------------------------------7-8-10-|
B||---------------------------------8-10---------|
G||-------------------------7-8-10---------------|
D||-----------------7-9-10-----------------------|
A||----------6-8-10------------------------------|
E||---7-8-10-------------------------------------|

Patrón traste 8:

E||--------------------------------------------8-10-12-|
B||--------------------------------------10-12---------|
G||-----------------------------8-10-12----------------|
D||--------------------9-10-12-------------------------|
A||-----------8-10-12----------------------------------|
E||---8-10-11------------------------------------------|

Patrón traste 10:

E||------------------------------------------------10-11-13-|
B||--------------------------------------10-12-13-----------|
G||--------------------------------10-12--------------------|
D||----------------------10-12-13---------------------------|
A||------------10-12-14-------------------------------------|
E||---10-11-13----------------------------------------------|

Patrón traste 11:

E||------------------------------------------------11-13-15-|
B||--------------------------------------12-13-15-----------|
G||--------------------------------12-14--------------------|
D||----------------------12-13-15---------------------------|
A||------------12-14-15-------------------------------------|
E||---11-13-15----------------------------------------------|

 

8 comentarios en “Patrones de la escala menor melódica de Do (C)”

  1. javi metal dice:

    excelente!

    gracias!

  2. NICOLAS dice:

    ola man paso por aki
    para preguntarte si tiene un link
    que me lleve
    donde hay un mastil de guitarra donde salen muxos patrones
    es donde uno activa una nota
    y se marcan en el brazo

    ojala puedas encontrarlo
    cuidate man saludos
    bye

  3. JJ dice:

    hola, si me pudierais pasar algun patron en La, os lo agradeceria

  4. Teofilo Vizcaino dice:

    Eso no es la escala menor melodica, eso es una simple escala mayor

  5. Al-iskandaro dice:

    Alex, sino me equivoco el patrón 8 está mal, revisalo por favor, en la primer cuerda sería: 8-10-11, ya que si es la escala de DO menor el MI es bemol, fijate que en la sexta cuerda lo pusiste bien… Eso creo!
    Muy buena la página, me reavivaron las ganas de tocar, tenía la eléctrica media colgada y necesitaba un empujón!

  6. Pepe dice:

    Sí, la escala es DO RE MIb FA SOL LA SI.

  7. edgar dice:

    la del traste 8 esta mal debe der mi bemol en la primera cuerda

Deja un comentario

Tu dirección de correo electrónico no será publicada. Los campos necesarios están marcados *

Puedes usar las siguientes etiquetas y atributos HTML: <a href="" title=""> <abbr title=""> <acronym title=""> <b> <blockquote cite=""> <cite> <code> <del datetime=""> <em> <i> <q cite=""> <strike> <strong>