Los acordes de quinta también llamados “Power Chords” son los más utilizados en la música rock, no son dificiles de aprender, ni de digitar, pero esta lección ayudará a los principantes a utilizarlos correctamente.

Sin más preambulos vamos a tocar un acorde de quinta, concretamente G5 (sol 5ª):

e|-------------|
B|-------------|
G|-------------|
D|-5-----------|
A|-5-----------|
E|-3-----------|

Tocadlo con un poquito de distorsión, y notaréis al instante el sonido “rockero” del que hablaba antes. En cuanto a la digitación, el 3er traste de la 6ª cuerda con el dedo indice, el 5º traste de la 5ª cuerda con el dedo anular, y el 5º traste de la cuerda 4ª con el dedo meñique.

Si os resulta complicado al principio, podeis empezar tocando el acorde solamente con dos cuerdas, de modo que, el 3er traste de la 6 cuerda con el dedo indice y el 5º traste de la 5ª cuerda con el meñique, es más sencillo:

e|-------------|
B|-------------|
G|-------------|
D|-------------|
A|-5-----------|
E|-3-----------|

Podéis probar el acorde en distintas posiciones del puente, subiendo/bajando, por ejemplo:

e|------------------------------------|
B|------------------------------------|
G|-------------------7---8---9--------|
D|-5----7---8---7----7---8---9--------|
A|-5----7---8---7----5---6---7--------|
E|-3----5---6---5---------------------|


Para profundizar más, atentos a este video, explica como hacer acordes de quinta, y además explica la técnica del “palm muting“, básica para un guitarrista moderno, no os preocupéis si esa parte no queda clara, la podemos explicar más adelante, quedaros con el tema de los acordes de quinta ;)

RECOMENDADO:

Recopilación de lecciones de guitarra para principiantes