La Escala Mayor: guitarra para principiantes

Hoy vamos a dar un repaso a la Escala Mayor (modo jónico), en las escalas para guitarra la más importante. Conviene recordar lo primero que las escalas mayores y menores son escalas diatónicas porque están formadas por intervalos de segunda consecutivos y que se representan a través de los modos gregorianos: jónico, dórico, frigio, lidio, eólico y locrio. El modo jónico, llamado comúnmente mayor es el modelo base para la escala mayor y es el más utilizado en la mayoría de estilos musicales, seguro que lo reconocéis en el 90% de las canciones que se escuchan a diario.

La característica principal de este modo es que se compone de intervalos mayores excepto entre la 3ª y la 4ª y la 7ª y la tónica, que son intervalos menores (semitonos). Su estructura es la siguiente:


tónica – tono – tono – semitono – tono -tono – tono – semitono


A continuación vamos a ver la Escala Mayor de Do (C) a lo largo de todo el diapasón, las notas que la componen (7) son las siguientes:

do – re – mi – fa – sol – la – si – do


Una vez conocida la teoría básica sobre como se forma la Escala Mayor, podemos trasponerla al diapasón de la guitarra para comenzar a trabajar sobre los distintos patrones que encontramos en todo el mástil. En la primera imagen encontramos representada la escala a lo largo del diapasón con el nombre de cada nota, mientras que en la segunda encontramos el grado (la posición de cada nota dentro de la escala) en cada nota. La nota representada en rojo es la tónica de la escala, en este caso Do (C).

Por recordar la nomenclatura de notas musicales anglosajona para los que no lo sepan:

Español -> Inglés


Do -> C
Re -> D
Mi -> E
Fa -> F
Sol -> G
La -> A
Si -> B

Escala Mayor de Do (C) – Trastes 1 al 15 (notas)

Escala Mayor Guitarra

Escala Mayor de Do (C) – Trastes 1 al 15 (grados)

Escala Mayor guitarra con grados
Imagenes generadas en www.12bar.de

A partir de aquí, una vez conocida la teoría básica y aprendido la posición de la escala en todo el diapasón de la guitarra podemos comenzar a practicar ejercicios, os dejo un par de ejemplos usando estos patrones.

Ejercicio de Escala Mayor para guitarra desde el traste nº5:

E ---------------5---7-5-8-8-5-7---5---------------
B ---5---6-5-8-6---8-------------8---6-8-5-6---5---
G -5---7-------------------------------------7---5-
D -------------------------------------------------
A -------------------------------------------------
E -------------------------------------------------

Ejercicio de Escala Mayor para guitarra desde el traste nº2:

E -------------------------------------------------
B -------------------------------------------------
G ---------------------2-4-5-4-2-------------------
D ---------2-3-5-3-2-5-----------5-3-2----------
A -3-2-3-5-----------------------------5-2-3-------
E -------------------------------------------------

Ejercicio de Escala Mayor para guitarra desde el traste nº7:

E ------------------------------------------------------------------------------
B ------------------------------------------------------------------------------
G -------------------------------------------------------7------7-9----7-9-10-7-
D ---------------------------7------7-9----7-9-10-7-9-10---9-10-----10----------
A ------7-8----7-8-10-7-8-10---8-10-----10--------------------------------------
E -8-10-----10------------------------------------------------------------------

E --------------------------7------7-8-8-7------7-------------------------------
B ------8------8-10----8-10---8-10---------10-8---10-8----10-8------8-----------
G -9-10---9-10------10---------------------------------10------10-9---10-9-7-10-
D ------------------------------------------------------------------------------
A ------------------------------------------------------------------------------
E ------------------------------------------------------------------------------

E -------------------------------------------------------------------------
B -------------------------------------------------------------------------
G -9-7----9-7------7-------------------------------------------------------
D -----10-----10-9---10-9-7-10-9-7----9-7------7---------------------------
A ---------------------------------10-----10-8---10-8-7-10-8-7----8-7------
E -------------------------------------------------------------10-----10-8-

 

Relacionados:

5 comentarios en “La Escala Mayor: guitarra para principiantes”

  1. leviatan_mark says:

    xevere

  2. ALEX_GRUNGE says:

    Muchas gracias !!! tengo el proyecto de comenzar a dar clases a niños o jovenes q van a empezar desde cero y estos articulos son muy, pero muy utiles gracias!!!

  3. GuitarFiero says:

    He subido ésta vídeo lección donde explico la teoría básica.
    Merece la pena.
    http://www.guitarfiero.com/2012/08/teoria-sobre-las-escalas-mayores-y.html

  4. EL Diego says:

    Imprimir este mail y estudiar.

    1. Enrique Jimenez says:

      muchas gracias profe :)

Deja un comentario

Tu dirección de correo electrónico no será publicada. Los campos necesarios están marcados *

Puedes usar las siguientes etiquetas y atributos HTML: <a href="" title=""> <abbr title=""> <acronym title=""> <b> <blockquote cite=""> <cite> <code> <del datetime=""> <em> <i> <q cite=""> <strike> <strong>