Escala Menor Armónica

Hoy vamos a trabajar unos patrones interesantes bajo la escala Menor Armónica de Re (D), que cuenta con las siguientes notas:

D – E – F – G – A – B♭ – D♭ – D

El patrón que vamos a usar es el siguiente:

Escala Armonica menor

También os he preparado todos los patrones en todo el diapasón, podéis verlo o descargarlo pinchando en la imagen siguiente (gracias All Guitar Chords)

Escala menor armónica

Ejercicio 1:

En este ejercicio trabajamos un patrón que utiliza secuencias de 5 notas subiendo y bajando a través de la escala Menor Armónica de Re por las 6 cuerdas de la guitarra entre los trastes 9 y 13, es para nivel intermedio y en cuanto al uso de púa, lo más normal sería utilizar alternate picking (púa-contrapúa), aunque también podría usarse economy picking o cualquier técnica que se desee practicar:

E ------------------------------------------------------------------------------
B ------------------------------------------------------------------------------
G -------------------------------------------------------------------------9----
D -------------------------------------------11----------11-12-------11-12------
A ----------10-12-------10-12-13----10-12-13----10-12-13-------12-13---------13-
E -10-12-13-------12-13----------13---------------------------------------------

E ------------------------------------------------------------------9----------9-
B -------------------------------------10---------10-11-------10-11------10-11---
G -------9-10-------9-10-12----9-10-12----9-10-12-------10-12---------12---------
D -11-12------11-12---------12---------------------------------------------------
A -------------------------------------------------------------------------------
E -------------------------------------------------------------------------------

E -10-10-9----------9------------------------------------------------------------
B ---------11-10------11-10-------11-10---------10-------------------------------
G ---------------12---------12-10-------12-10-9----12-10-9----12-10-9-------10-9-
D ---------------------------------------------------------12---------12-11------
A -------------------------------------------------------------------------------
E -------------------------------------------------------------------------------

E ------------------------------------------------------------------------------
B ------------------------------------------------------------------------------
G ----------9-------------------------------------------------------------------
D -12-11------12-11-------12-11----------11-------------------------------------
A -------13---------13-12-------13-12-10----13-12-10----13-12-10-------12-10----
E ---------------------------------------------------13----------13-12-------13-

E -------
B -------
G -------
D -------
A -------
E -12-10-

Ejercicio 2:

En este ejercicio trabajamos el mismo patrón que el anterior pero con secuencias de 3 notas en vez de 5:

E -------------------------------------------------------------------------------
B -------------------------------------------------------------------------------
G -------------------------------------------------------------9----9-10-9-10-12-
D -------------------------------------------11----11-12-11-12---12--------------
A ----------------10----10-12-10-12-13-12-13----13-------------------------------
E -10-12-13-12-13----13----------------------------------------------------------

E -------------------------9----9-10-10-9----9------------------------------------
B -------10----10-11-10-11---11-----------11---11-10-11-10----10------------------
G -10-12----12---------------------------------------------12----12-10-12-10-9-10-
D --------------------------------------------------------------------------------
A --------------------------------------------------------------------------------
E --------------------------------------------------------------------------------

E --------------------------------------------------------------------
B --------------------------------------------------------------------
G -9----9-------------------------------------------------------------
D ---12---12-11-12-11----11-------------------------------------------
A --------------------13----13-12-13-12-10-12-10----10----------------
E -----------------------------------------------13----13-12-13-12-10-

Ejercicio 3:

Lo mismo, pero con secuencias de cuatro notas sucesivas:

E ------------------------------------------------------------------------------
B ------------------------------------------------------------------------------
G ----------------------------------------------------------------------9-------
D ----------------------------------------------11-------11-12----11-12---11-12-
A ----------10-------10-12----10-12-13-10-12-13----12-13-------13---------------
E -10-12-13----12-13-------13---------------------------------------------------

E -------------------------------------------------9-------9-10-10-9-------9----
B -------------------------10-------10-11----10-11---10-11-----------11-10---11-
G -9-10----9-10-12-9-10-12----10-12-------12------------------------------------
D ------12----------------------------------------------------------------------
A ------------------------------------------------------------------------------
E ------------------------------------------------------------------------------

E ------------------------------------------------------------------------------
B -10----11-10-------10---------------------------------------------------------
G ----12-------12-10----12-10-9-12-10-9----10-9-------9-------------------------
D --------------------------------------12------12-11---12-11----12-11-------11-
A ------------------------------------------------------------13-------13-12----
E ------------------------------------------------------------------------------

E ----------------------------------------------
B ----------------------------------------------
G ----------------------------------------------
D ----------------------------------------------
A -13-12-10-13-12-10----12-10-------10----------
E -------------------13-------13-12----13-12-10-
 

8 comentarios en “Escala Menor Armónica”

  1. miguel branco dice:

    quem tem escalas harmonicas menores em “drop Dó” ?

  2. Efrain Mejia dice:

    Gracias por su articulo. Muy bien explicado

  3. Pepe dice:

    Miguel, qué significa “en drop dó”?

  4. charly dice:

    Hola, quería saber si puedo usar la escala menor, melódica, o armónica, en el solo de un tema en sol mayor.
    Gracias muy buenas las clases muy copada la forma de explicar que tenes.

  5. battis94 dice:

    charly: según en que tonalidad este la escala que uses…

  6. charly dice:

    Ok Battis gracias, o sea que puedo usar la escala menor armónica de sol, aunque el tema este en sol mayor.

  7. battis94 dice:

    claro… yo conocia una pagina para traspasar las escalas en distintas tonalidades… si queres la busco y t la paso…

  8. RENATO HERRERA dice:

    gracias muy buen aporte, sigan asi, adios…..

Deja un comentario

Tu dirección de correo electrónico no será publicada. Los campos obligatorios están marcados con *