La escala enigmática es la que consta de siete notas y está estructurada con los siguientes intervalos:

2.ª menor – 3.ª mayor- 4.ª, 5.ª y 6.ª aumentadas y 7.ª mayor

1,b2,3,#4,#5,#6,7

Ejemplo de escala enigmática:

Escala_enigmatica.jpg‎

Cualquier nota puede servir como punto de partida para la escala enigmática. Vamos a trabajar unos patrones de esta escala bajo la tonalidad de C. En primera instancia aquí tenéis sus patrones en todo el diapasón:

do – reb – mi – fa# – sol# – la# – si – do

Ejercicio 1:

Escala enigmatica

|------4--2--0---------------------------------------------
|---------------2--1--0------------------------------------
|------------------------3--1------------------------------
|------------------------------4--2------------------------
|------------------------------------4--3--2--1------------
|------------------------------------------------4--2------

|---------------------------------------------0--2--4------
|------------------------------------0--1--2---------------
|------------------------------1--3------------------------
|------------------------2--4------------------------------
|------------1--2--3--4------------------------------------
|------2--4------------------------------------------------

Ejercicio 2:

Escala enigmatica

|------7--6--4--2---------------------------------------------
|------------------5--2---------------------------------------
|------------------------5--4--3------------------------------
|---------------------------------6--4--2---------------------
|------------------------------------------4--3--2------------
|---------------------------------------------------6--4------

|---------------------------------------------2--4--6--7------
|---------------------------------------2--5------------------
|------------------------------3--4--5------------------------
|---------------------2--4--6---------------------------------
|------------2--3--4------------------------------------------
|------4--6---------------------------------------------------

Ejercicio 3:

Escala enigmatica

|------9--8--7--6--4---------------------------------------------
|---------------------7--5---------------------------------------
|---------------------------6--5--4------------------------------
|------------------------------------8--6--4---------------------
|---------------------------------------------7--4---------------
|---------------------------------------------------8--7--6------

|---------------------------------------------4--6--7--8--9------
|---------------------------------------5--7---------------------
|------------------------------4--5--6---------------------------
|---------------------4--6--8------------------------------------
|---------------4--7---------------------------------------------
|------6--7--8---------------------------------------------------

Ejercicio 4:

Escala enigmatica

|-----12--9--8----------------------------------------------------
|---------------12-11--9-----------------------------------------
|--------------------------11--9----------------------------------
|---------------------------------11-10--9--8--------------------
|-----------------------------------------------11--9-------------
|------------------------------------------------------12--9------

|----------------------------------------------------8--9-12------
|-----------------------------------------9-11-12----------------
|----------------------------------9-11---------------------------
|--------------------8--9-10-11----------------------------------
|-------------9-11------------------------------------------------
|------9-12-------------------------------------------------------