Ejercicios: Patrones de la escala menor armónica de La

La escala menor armónica se obtiene a partir de la escala diatónica, gracias a disminuir la 3ª y la 6ª nota de la escala. Es bastante conocida por su uso en el metal neoclásico (véase Yngwie Malmsteen por ejemplo).

La principal característica de esta escala es su sonido egipcio/árabe. Con estos ejercicios pretendo que os familiaricéis con la escala y con alguno de sus patrones básicos.

Ejercicio 1:

e----------------------------4-5-7---
b------------------------5-6---------
g------------------4-5-7-------------
d--------------6-7-------------------
a--------5-7-8-----------------------
E--5-7-8-----------------------------

1 3 4 1 3 4 2 3 1 2 4 2 3 1 1 3 4 (digitación)

Ejercicio 2:

e-----------------------------------12-13-16-
b--------------------------12-13-15----------
g--------------------13-14-------------------
d-----------12-14-15-------------------------
a--12-14-15----------------------------------
E--------------------------------------------

1 3 4 1 3 4 2 3 1 2 4 1 2 4 (digitación)

Ejercicio 3:

e---------------------------------7-8-10---
b--------------------------6-9-10----------
g--------------------5-7-9-----------------
d--------------6-7-9-----------------------
a--------5-7-8-----------------------------
E--5-7-8-----------------------------------

1 3 4 1 3 4 1 2 4 1 2 4 1 3 4 1 3 4 (digitación)


Ejercicio 4:

e--------------------------------------13-16-17-
b-----------------------------13-15-17----------
g--------------------13-14-16-------------------
d-----------12-14-15----------------------------
a--12-14-15-------------------------------------
E-----------------------------------------------

1 3 4 1 3 4 1 2 4 1 2 4 1 3 4(digitación)

 

4 comentarios en “Ejercicios: Patrones de la escala menor armónica de La”

  1. gerry dice:

    muy interesante me ayudo mucho a personalizar mi tecnica y mas q nada mi estilo de tocar… ya me abia acostumbrado mucho a la escala de blues

  2. Pepe dice:

    Modos de la escala menor armónica:

    T 2M 3m 4J 5J 6m 7M Escala menor armónica=EÓLICO 7M
    T 2m 3m 4J 5- 6M 7m LOCRIO 6M
    T 2M 3M 4J 5+ 6M 7M JÓNICO 5+
    T 2M 3m 4+ 5J 6M 7m DÓRICO 4+
    T 2m 3M 4J 5J 6m 7m FRIGIO 3M (dominante)
    T 2+ 3M 4J 5J 6M 7M LIDIO 2aum
    T 2m 3m 4- 5- 6m 7- LOCRIO 4 dis/7dis (alterada o super locria bb7)

    De aquí se sacan los siguientes acordes básicos:
    Im/7M
    IIm7/5-
    IIIM7/5+
    IVm7
    V7 (DOMINANTE) 3M/7m
    VIM7
    VIIm/5-7- (DISMINUÍDO)

  3. roman hernandez dice:

    escalas armonicas

  4. roman hernandez dice:

    armonicas escalas

Deja un comentario

Tu dirección de correo electrónico no será publicada. Los campos obligatorios están marcados con *