Ejercicios de guitarra: Saltos de cuerda o String Skipping

Primero vamos a explicar en que consiste exactamente la técnica de guitarra del String Skipping o saltos de cuerda:

La forma de ejecutar un String Skipping es tocando una o varias notas en una determinada cuerda, y posteriormente en vez de seguir con la melodía o riff en la siguiente cuerda, nos la saltamos y tocamos en cualquier otra cuerda, ejemplo:

Salto de cuerda básico:

v = upstroke
^ = downstroke

v ^ v ^ v ^ v ^ etc.
e|-12-13-15-------------------------------|
B|-------------------12-14-15-------------|
G|----------12-13-15----------------------|
D|----------------------------12-14-15----|
A|----------------------------------------|
E|----------------------------------------|

e|----------------------------------------|
B|----------------------------------------|
G|-12-13-15-------------------------------|
D|-------------------12-13-15-------------|
A|----------12-14-15----------------------|
E|----------------------------12-13-15-12~|

Os habréis fijado que este ejercicio utiliza escala disminuida, y con notas en bloques de tres para cada cuerda, podría decirse que este es uno de los saltos de cuerda más sencillos junto con los de pentatónica, este ejemplo utiliza bloques de dos notas sobre la escala pentatónica:


e|-15-12---------------------------------------------------------|
B|----------------12-15------------------------------------------|
G|--------14-12------------------14-12---------------------------|
D|------------------------14-12------------------14-12-----------|
A|-----------------------------------------14-12-----------------|
E|--------------------------------------------------------15-12--|

Uno de los maestros indiscutibles del String Skipping es Paul Gilbert, y tenéis gran cantidad de ejercicios relacionados con esta técnica en su libro instruccional Terrifying Guitar Trip, disponible en descarga directa aquí. A continuación un ejemplo de esta técnica por Paul Gilbert:


e|-10----------------10----------------10-|
B|----------------------------------------|
G|----14-11----11-14----11-14----11-14----|
D|----------12----------------12----------|
A|----------------------------------------|
E|----------------------------------------|

En cuanto a la ejecución, si eres primerizo en la técnica, lo mejor es que comiences usando la técnica púa-contrapúa (upstroke/downstroke) o con ligados, los más avanzados suelen combinar la técnica de los saltos de cuerda con los barridos (Sweep Picking + String Skipping).

Os dejo un vídeo en el que Paul Gilbert explica su modo de ver esta técnica y su ejecución:

Paul Gilbert String Skipping Paul Gilbert string skips

Y el último ejercicio por hoy, próximamente iremos profundizando más en el tema y añadiendo más ejercicios:


e|--------------------------------------------|
B|--------------------------------------------|
G|--------------------------------------------|
D|---------6-7-9-7-5-------------6-7-9-7-5----|
A|--------------------------------------------|
E|--5-7-9-------------9-7-5-7-9---------------|


e|-------------------------------------|
B|-------------------------------------|
G|-------------------------------------|
D|-------------6-8-9-7-6---------------|
A|-------------------------------------|
E|-9-7-5-7-9--------------9-7-5-7------|

 

Un comentario en “Ejercicios de guitarra: Saltos de cuerda o String Skipping”

Deja un comentario

Tu dirección de correo electrónico no será publicada. Los campos obligatorios están marcados con *