Ejercicios de guitarra con la Escala Pentatónica Menor

Hace unos días vimos un poco de teoría y ejercicios con la Escala Pentatónica Mayor, ahora vamos a hacer lo mismo con la Escala Pentatónica Menor. La Escala Pentatónica Menor consta de cinco notas y se construye a partir de la Escala Menor Natural suprimiendo la segunda y la sexta menor.

Si tomamos como tónica Do (C) la escala quedaría formada así:

Do (C) – Mi♭ (E♭) – Fa (F) – Sol (G) – Si♭ (B♭)

Siguiendo las indicaciones anteriores, vemos que la escala se ha formado a partir de la Menor Natural quitando los grados 2 y 6º menor, Re y La♭ :

Do (C) – Re (D) – Mi♭ (E♭) – Fa (F) – Sol (G) – La♭ (A♭) – Si♭ (B♭)

A continuación podéis visualizar la Escala Pentatónica Menor de Do (C) a lo largo del diapasón, tanto con las notas sobre impresionadas como los intervalos:

Notas Escala Pentatonica Menor
Grados Escala Pentatonica Menor
Imagenes generadas en www.12bar.de

Os dejo también unos pocos ejercicios para que podáis ir practicando la escala, no obstante podéis ir cogiendo cada patrón que la compone con los diagramas anteriores e ir practicando a lo largo de todo el diapasón.

E ---------------------------------------8-8---------------------------------------
B -----------------------------8---11-----------11---8-----------------------------
G -------------------8---10------8----10-----10----8------10---8-------------------
D ---------8---10------8----10-------------------------10----8------10---8---------
A ---10------8----10---------------------------------------------10----8------10---
E -8----11-----------------------------------------------------------------11-----8

 

E -------------------------------------------8-8------------------------------------------
B ---------------------------------8----11-8-----8-11----8--------------------------------
G -----------------------8----10-8---10---------------10---8-10----8----------------------
D -------------8----10-8---10-----------------------------------10---8-10----8------------
A ---8----10-8---10-------------------------------------------------------10---8--10---8--
E--8---11----------------------------------------------------------------------------11---8

E -------------------------------------------------
B-----------------11----13-13----11----------------
G ----10----12-10----12-------12----10-12----10----
D -10----13-------------------------------13----10-
A -------------------------------------------------
E -------------------------------------------------

 

2 comentarios en “Ejercicios de guitarra con la Escala Pentatónica Menor”

  1. Middnight dice:

    No se ve bien el segundo :/.

  2. Alex dice:

    Hola Middnight, ya se debería ver OK.

    SAludos

Deja un comentario

Tu dirección de correo electrónico no será publicada. Los campos obligatorios están marcados con *