Ejercicios cromáticos

Los ejercicios y licks cromáticos son esenciales para una buena coordinación, técnica y velocidad a la hora de tocar la guitarra. Es recomendable practicarlos todos los días, creando diferentes variantes, cambiando la técnica de la mano derecha (picking, alternate picking, ligados, etc). La mayoría de guitarristas los usan para calentar antes de tocar, son perfectos para esta tarea además de ayudar también a mejorar todo lo indicado anteriormente.

A continuación os dejo unos ejercicios que he generado desde GuitarCardio, una excelente web para crear ejercicios a medida. Recordad, empezad despacio, usad el metrónomo y aumentar la velocidad de forma progresiva:

Ejercicio cromático 1

E ---------------------------------------------------------------------------1---
B -----------------------------------------------------------1---2-1-3-2-4-3---4-
G -------------------------------------------1---2-1-3-2-4-3---4-----------------
D ---------------------------1---2-1-3-2-4-3---4---------------------------------
A -----------1---2-1-3-2-4-3---4-------------------------------------------------
E -1-3-2-4-3---4-----------------------------------------------------------------

E -2-1-3-2-4-4-2-3-1-2---1-------------------------------------------------------
B ---------------------4---3-4-2-3-1-2---1---------------------------------------
G -------------------------------------4---3-4-2-3-1-2---1-----------------------
D -----------------------------------------------------4---3-4-2-3-1-2---1-------
A ---------------------------------------------------------------------4---3-4-2-
E -------------------------------------------------------------------------------

E ---------------------
B ---------------------
G ---------------------
D ---------------------
A -3-1-2---1-----------
E -------4---3-4-2-3-1-

Ejercicio cromático 2


E -------------------------------------------------------------------------------
B -----------------------------------------------------------------------------1-
G -----------------------------------------------------1-----2---1-3---2-4-1-3---
D -----------------------------1-----2---1-3---2-4-1-3---2-4---3-----4-----------
A -----1-----2---1-3---2-4-1-3---2-4---3-----4-----------------------------------
E -1-3---2-4---3-----4-----------------------------------------------------------

E -----------------------1-----2---1-3---2-4-4-2---3-1---2-----1-----------------
B -----2---1-3---2-4-1-3---2-4---3-----4---------4-----3---4-2---3-1-4-2---3-1---
G -2-4---3-----4---------------------------------------------------------4-----3-
D -------------------------------------------------------------------------------
A -------------------------------------------------------------------------------
E -------------------------------------------------------------------------------

E -------------------------------------------------------------------------------
B -2-----1-----------------------------------------------------------------------
G ---4-2---3-1-4-2---3-1---2-----1-----------------------------------------------
D -----------------4-----3---4-2---3-1-4-2---3-1---2-----1-----------------------
A -----------------------------------------4-----3---4-2---3-1-4-2---3-1---2-----
E -----------------------------------------------------------------4-----3---4-2-

E -------
B -------
G -------
D -------
A -1-----
E ---3-1-

Ejercicio cromático 3

E -----------------------------------------------------------------------1---2---
B -------------------------------------------------------1---2---3-1-4-2---3---4-
G ---------------------------------------1---2---3-1-4-2---3---4-----------------
D -----------------------1---2---3-1-4-2---3---4---------------------------------
A -------1---2---3-1-4-2---3---4-------------------------------------------------
E -1-4-2---3---4-----------------------------------------------------------------

E -3-1-4-4-1-3---2---1-----------------------------------------------------------
B -------------4---3---2-4-1-3---2---1-------------------------------------------
G -----------------------------4---3---2-4-1-3---2---1---------------------------
D ---------------------------------------------4---3---2-4-1-3---2---1-----------
A -------------------------------------------------------------4---3---2-4-1-3---
E -----------------------------------------------------------------------------4-


E -------------
B -------------
G -------------
D -------------
A -2---1-------
E ---3---2-4-1-

 

Un comentario en “Ejercicios cromáticos”

  1. Olger dice:

    No los entiendo mucho jeje

Deja un comentario

Tu dirección de correo electrónico no será publicada. Los campos obligatorios están marcados con *