Hoy vamos a recordar algunos de los patrones para guitarra eléctrica de la Escala Pentatónica Mayor en la tonalidad de Do (C) y practicar ejercicios sobre ellos. Las notas (cinco) que componen esta escala son las siguientes:

C – D – E – G – A

Do – Re – Mi – Sol – La

Como podéis visualizar, es una escala mayor que no cuenta con intervalos de semitono, es decir, se eliminan los grados 4º y 7º:

  • Tónica
  • Segunda mayor
  • Tercera mayor
  • Quinta justa
  • Sexta mayor

Estructura tonal:

  • Tono
  • Tono
  • Tono y medio
  • Tono
  • Tono y medio

Bien, una vez que tenemos una noción básica de la Escala Pentatónica Mayor, vamos a trasponerla en el diapasón de la guitarra. En este caso superponemos la Escala Pentatónica Mayor de Do desde el traste 1 hasta el 15, la nota tónica (Do) está representada en rojo. El primer esquema muestra el diapasón con las notas superpuestas y su nombre, mientras que en el segundo vemos los grados de las notas:

Notas Escala Pentatonica Mayor Do
Grados Escala Pentatonica Mayor Do
Gráficos generados desde www.12bar.de

A los principiantes os recomiendo practicar por bloques cada uno de los patrones de la escala (los patrones están representados con números romanos III, V, VII, IX, etc). A continuación os dejo algunos ejemplos, recordad que se pueden trasponer a cualquier patrón de la escala:

Ejercicios de Escala Pentatónica Mayor con el patrón V

E -----------------------------------------------------------5-------5-8-8-5-----
B ---------------------------------------5-------5-8-----5-8-----5-8---------8-5-
G -------------------5-------5-7-----5-7-----5-7-----5-7-------7-----------------
D -------5-7-----5-7-----5-7-----5-7-------7-------------------------------------
A ---5-7-----5-7-------7---------------------------------------------------------
E -8-----------------------------------------------------------------------------


E ---5-----------------------------------------------------------
B -----8-5-----8-5-------5---------------------------------------
G -7-------7-5-----7-5-----7-5-----7-5-------5-------------------
D ---------------------7-------7-5-----7-5-----7-5-----7-5-------
A -----------------------------------------7-------7-5-----7-5---
E -------------------------------------------------------------8-

E -------------------5-8-8-5-------------------
B ---------------5-8---------8-5---------------
G -----------5-7-----------------7-5-----------
D -------5-7-------------------------7-5-------
A ---5-7---------------------------------7-5---
E -8-----------------------------------------8-

Ejercicios de Escala Pentatónica Mayor con el patrón VII

E --------------------------8-8--------------------------
B ------------8---8-10-8-10-----10-8-10-8---8------------
G ----7-9-7-9---9-------------------------9---9-7-9-7----
D -10-------------------------------------------------10-
A -------------------------------------------------------
E -------------------------------------------------------

E ---------------5-----5-8-8-5-----5---------------
B -----5-8---5-8---5-8---------8-5---8-5---8-5-----
G -5-7-----7-----------------------------7-----7-5-
D -------------------------------------------------
A -------------------------------------------------
E -------------------------------------------------


E -------------8-8-------------
B ----8---10---------10---8----
G ------7----9-----9----7------
D -10-----------------------10-
A -----------------------------
E -----------------------------

Ejercicio de Escala Pentatónica Mayor con el patrón XII

E ------------------------------------------------------------------------------
B --------------------------------------------------------------------13--------
G --------------------------------------------12-------12-14----12-14----12-14--
D -----------------------12------12-14---12-14---12-14-------14-----------------
A -------12-15-----12-15----12-15------15---------------------------------------
E -12-15--------15--------------------------------------------------------------

 

E ----------------12-------12-15--
B --13-15---13-15-
---13-15--------
G --------14----------------------
D --------------------------------
A --------------------------------
E --------------------------------

Como siempre recordad que tenéis que practicar con un metrónomo e ir aumentando lenta y progresivamente la velocidad de los ejercicios.